  0
SECTION
  2
HEADER
  9
$ACADVER
  1
AC1015
  9
$ACADMAINTVER
 70
     6
  9
$DWGCODEPAGE
  3
ANSI_1252
  9
$INSBASE
 10
0.0
 20
0.0
 30
0.0
  9
$EXTMIN
 10
-46.68070349715949
 20
0.4404511883367235
 30
-0.0000000100018307
  9
$EXTMAX
 10
20.44397455789891
 20
42.88867936787565
 30
0.0000000100018311
  9
$LIMMIN
 10
0.0
 20
0.0
  9
$LIMMAX
 10
0.0
 20
0.0
  9
$ORTHOMODE
 70
     0
  9
$REGENMODE
 70
     1
  9
$FILLMODE
 70
     1
  9
$QTEXTMODE
 70
     0
  9
$MIRRTEXT
 70
     1
  9
$LTSCALE
 40
1.0
  9
$ATTMODE
 70
     1
  9
$TEXTSIZE
 40
0.2
  9
$TRACEWID
 40
0.05
  9
$TEXTSTYLE
  7
Standard
  9
$CLAYER
  8
0
  9
$CELTYPE
  6
ByLayer
  9
$CECOLOR
 62
   256
  9
$CELTSCALE
 40
1.0
  9
$DISPSILH
 70
     0
  9
$DIMSCALE
 40
1.0
  9
$DIMASZ
 40
0.09
  9
$DIMEXO
 40
0.05
  9
$DIMDLI
 40
0.38
  9
$DIMRND
 40
0.0
  9
$DIMDLE
 40
0.0
  9
$DIMEXE
 40
0.0625
  9
$DIMTP
 40
0.0
  9
$DIMTM
 40
0.0
  9
$DIMTXT
 40
0.1666666666666666
  9
$DIMCEN
 40
0.09
  9
$DIMTSZ
 40
0.0
  9
$DIMTOL
 70
     0
  9
$DIMLIM
 70
     0
  9
$DIMTIH
 70
     1
  9
$DIMTOH
 70
     1
  9
$DIMSE1
 70
     0
  9
$DIMSE2
 70
     0
  9
$DIMTAD
 70
     0
  9
$DIMZIN
 70
     0
  9
$DIMBLK
  1

  9
$DIMASO
 70
     1
  9
$DIMSHO
 70
     1
  9
$DIMPOST
  1

  9
$DIMAPOST
  1

  9
$DIMALT
 70
     0
  9
$DIMALTD
 70
     2
  9
$DIMALTF
 40
25.4
  9
$DIMLFAC
 40
1.0
  9
$DIMTOFL
 70
     0
  9
$DIMTVP
 40
0.0
  9
$DIMTIX
 70
     0
  9
$DIMSOXD
 70
     0
  9
$DIMSAH
 70
     0
  9
$DIMBLK1
  1

  9
$DIMBLK2
  1

  9
$DIMSTYLE
  2
Standard
  9
$DIMCLRD
 70
     0
  9
$DIMCLRE
 70
     0
  9
$DIMCLRT
 70
     0
  9
$DIMTFAC
 40
1.0
  9
$DIMGAP
 40
0.06
  9
$DIMJUST
 70
     0
  9
$DIMSD1
 70
     0
  9
$DIMSD2
 70
     0
  9
$DIMTOLJ
 70
     1
  9
$DIMTZIN
 70
     0
  9
$DIMALTZ
 70
     0
  9
$DIMALTTZ
 70
     0
  9
$DIMUPT
 70
     0
  9
$DIMDEC
 70
     4
  9
$DIMTDEC
 70
     4
  9
$DIMALTU
 70
     2
  9
$DIMALTTD
 70
     2
  9
$DIMTXSTY
  7
Standard
  9
$DIMAUNIT
 70
     0
  9
$DIMADEC
 70
     0
  9
$DIMALTRND
 40
0.0
  9
$DIMAZIN
 70
     0
  9
$DIMDSEP
 70
    46
  9
$DIMATFIT
 70
     3
  9
$DIMFRAC
 70
     0
  9
$DIMLDRBLK
  1

  9
$DIMLUNIT
 70
     2
  9
$DIMLWD
 70
    -2
  9
$DIMLWE
 70
    -2
  9
$DIMTMOVE
 70
     0
  9
$LUNITS
 70
     2
  9
$LUPREC
 70
     3
  9
$SKETCHINC
 40
0.1
  9
$FILLETRAD
 40
0.5
  9
$AUNITS
 70
     0
  9
$AUPREC
 70
     0
  9
$MENU
  1
.
  9
$ELEVATION
 40
0.0
  9
$PELEVATION
 40
0.0
  9
$THICKNESS
 40
0.0
  9
$LIMCHECK
 70
     0
  9
$CHAMFERA
 40
0.5
  9
$CHAMFERB
 40
0.5
  9
$CHAMFERC
 40
1.0
  9
$CHAMFERD
 40
0.0
  9
$SKPOLY
 70
     0
  9
$TDCREATE
 40
2454588.561228610
  9
$TDUCREATE
 40
2454588.769561944
  9
$TDUPDATE
 40
2454719.619724074
  9
$TDUUPDATE
 40
2454719.828057407
  9
$TDINDWG
 40
0.0449269444
  9
$TDUSRTIMER
 40
0.0449269444
  9
$USRTIMER
 70
     1
  9
$ANGBASE
 50
0.0
  9
$ANGDIR
 70
     0
  9
$PDMODE
 70
     0
  9
$PDSIZE
 40
-1.0
  9
$PLINEWID
 40
0.0
  9
$SPLFRAME
 70
     0
  9
$SPLINETYPE
 70
     6
  9
$SPLINESEGS
 70
     8
  9
$HANDSEED
  5
1D2
  9
$SURFTAB1
 70
     6
  9
$SURFTAB2
 70
     6
  9
$SURFTYPE
 70
     6
  9
$SURFU
 70
     6
  9
$SURFV
 70
     6
  9
$UCSBASE
  2

  9
$UCSNAME
  2

  9
$UCSORG
 10
0.0
 20
0.0
 30
0.0
  9
$UCSXDIR
 10
1.0
 20
0.0
 30
0.0
  9
$UCSYDIR
 10
0.0
 20
1.0
 30
0.0
  9
$UCSORTHOREF
  2

  9
$UCSORTHOVIEW
 70
     0
  9
$UCSORGTOP
 10
0.0
 20
0.0
 30
0.0
  9
$UCSORGBOTTOM
 10
0.0
 20
0.0
 30
0.0
  9
$UCSORGLEFT
 10
0.0
 20
0.0
 30
0.0
  9
$UCSORGRIGHT
 10
0.0
 20
0.0
 30
0.0
  9
$UCSORGFRONT
 10
0.0
 20
0.0
 30
0.0
  9
$UCSORGBACK
 10
0.0
 20
0.0
 30
0.0
  9
$PUCSBASE
  2

  9
$PUCSNAME
  2

  9
$PUCSORG
 10
0.0
 20
0.0
 30
0.0
  9
$PUCSXDIR
 10
1.0
 20
0.0
 30
0.0
  9
$PUCSYDIR
 10
0.0
 20
1.0
 30
0.0
  9
$PUCSORTHOREF
  2

  9
$PUCSORTHOVIEW
 70
     0
  9
$PUCSORGTOP
 10
0.0
 20
0.0
 30
0.0
  9
$PUCSORGBOTTOM
 10
0.0
 20
0.0
 30
0.0
  9
$PUCSORGLEFT
 10
0.0
 20
0.0
 30
0.0
  9
$PUCSORGRIGHT
 10
0.0
 20
0.0
 30
0.0
  9
$PUCSORGFRONT
 10
0.0
 20
0.0
 30
0.0
  9
$PUCSORGBACK
 10
0.0
 20
0.0
 30
0.0
  9
$USERI1
 70
     0
  9
$USERI2
 70
     0
  9
$USERI3
 70
     0
  9
$USERI4
 70
     0
  9
$USERI5
 70
     0
  9
$USERR1
 40
0.0
  9
$USERR2
 40
0.0
  9
$USERR3
 40
0.0
  9
$USERR4
 40
0.0
  9
$USERR5
 40
0.0
  9
$WORLDVIEW
 70
     1
  9
$SHADEDGE
 70
     3
  9
$SHADEDIF
 70
    70
  9
$TILEMODE
 70
     1
  9
$MAXACTVP
 70
    64
  9
$PINSBASE
 10
0.0
 20
0.0
 30
0.0
  9
$PLIMCHECK
 70
     0
  9
$PEXTMIN
 10
1.000000000000000E+20
 20
1.000000000000000E+20
 30
1.000000000000000E+20
  9
$PEXTMAX
 10
-1.000000000000000E+20
 20
-1.000000000000000E+20
 30
-1.000000000000000E+20
  9
$PLIMMIN
 10
0.0
 20
0.0
  9
$PLIMMAX
 10
12.0
 20
9.0
  9
$UNITMODE
 70
     0
  9
$VISRETAIN
 70
     1
  9
$PLINEGEN
 70
     0
  9
$PSLTSCALE
 70
     1
  9
$TREEDEPTH
 70
  3020
  9
$CMLSTYLE
  2
Standard
  9
$CMLJUST
 70
     0
  9
$CMLSCALE
 40
1.0
  9
$PROXYGRAPHICS
 70
     1
  9
$MEASUREMENT
 70
     0
  9
$CELWEIGHT
370
    -1
  9
$ENDCAPS
280
     0
  9
$JOINSTYLE
280
     0
  9
$LWDISPLAY
290
     1
  9
$INSUNITS
 70
     1
  9
$HYPERLINKBASE
  1

  9
$STYLESHEET
  1

  9
$XEDIT
290
     1
  9
$CEPSNTYPE
380
     0
  9
$PSTYLEMODE
290
     1
  9
$FINGERPRINTGUID
  2
{68A6EF6E-D848-4D58-AA94-F89231A16F16}
  9
$VERSIONGUID
  2
{D24DAA38-0D09-4532-AB30-1AB23B8FE132}
  9
$EXTNAMES
290
     1
  9
$PSVPSCALE
 40
0.0
  9
$OLESTARTUP
290
     0
  0
ENDSEC
  0
SECTION
  2
CLASSES
  0
CLASS
  1
ACDBDICTIONARYWDFLT
  2
AcDbDictionaryWithDefault
  3
AutoCAD 2000
 90
        0
280
     0
281
     0
  0
CLASS
  1
ACDBPLACEHOLDER
  2
AcDbPlaceHolder
  3
AutoCAD 2000
 90
        0
280
     0
281
     0
  0
CLASS
  1
LAYOUT
  2
AcDbLayout
  3
AutoCAD 2000
 90
        0
280
     0
281
     0
  0
ENDSEC
  0
SECTION
  2
TABLES
  0
TABLE
  2
VPORT
  5
8
330
0
100
AcDbSymbolTable
 70
     4
  0
VPORT
  5
1D1
330
8
100
AcDbSymbolTableRecord
100
AcDbViewportTableRecord
  2
*Active
 70
     0
 10
0.0
 20
0.0
 11
1.0
 21
1.0
 12
-13.11836446963029
 22
21.66456527810618
 13
0.0
 23
0.0
 14
0.5
 24
0.5
 15
0.5
 25
0.5
 16
0.0
 26
0.0
 36
1.0
 17
0.0
 27
0.0
 37
0.0
 40
42.92428307501039
 41
1.775280898876404
 42
50.0
 43
0.0
 44
0.0
 50
0.0
 51
0.0
 71
     0
 72
  2000
 73
     1
 74
     3
 75
     0
 76
     0
 77
     0
 78
     0
281
     0
 65
     1
110
0.0
120
0.0
130
0.0
111
1.0
121
0.0
131
0.0
112
0.0
122
1.0
132
0.0
 79
     0
146
0.0
  0
ENDTAB
  0
TABLE
  2
LTYPE
  5
5
330
0
100
AcDbSymbolTable
 70
     6
  0
LTYPE
  5
14
330
5
100
AcDbSymbolTableRecord
100
AcDbLinetypeTableRecord
  2
ByBlock
 70
     0
  3

 72
    65
 73
     0
 40
0.0
  0
LTYPE
  5
15
330
5
100
AcDbSymbolTableRecord
100
AcDbLinetypeTableRecord
  2
ByLayer
 70
     0
  3

 72
    65
 73
     0
 40
0.0
  0
LTYPE
  5
16
330
5
100
AcDbSymbolTableRecord
100
AcDbLinetypeTableRecord
  2
Continuous
 70
     0
  3
Solid line
 72
    65
 73
     0
 40
0.0
  0
LTYPE
  5
2A
330
5
100
AcDbSymbolTableRecord
100
AcDbLinetypeTableRecord
  2
HIDDEN
 70
     0
  3
Hidden __ __ __ __ __ __ __ __ __ __ __ __ __ __
 72
    65
 73
     2
 40
0.075
 49
0.05
 74
     0
 49
-0.025
 74
     0
  0
LTYPE
  5
2B
330
5
100
AcDbSymbolTableRecord
100
AcDbLinetypeTableRecord
  2
PHANTOM
 70
     0
  3
Phantom ______  __  __  ______  __  __  ______
 72
    65
 73
     6
 40
0.5
 49
0.25
 74
     0
 49
-0.05
 74
     0
 49
0.05
 74
     0
 49
-0.05
 74
     0
 49
0.05
 74
     0
 49
-0.05
 74
     0
  0
LTYPE
  5
2C
330
5
100
AcDbSymbolTableRecord
100
AcDbLinetypeTableRecord
  2
CENTER
 70
     0
  3
Center ____ _ ____ _ ____ _ ____ _ ____ _ ____
 72
    65
 73
     4
 40
0.4
 49
0.25
 74
     0
 49
-0.05
 74
     0
 49
0.05
 74
     0
 49
-0.05
 74
     0
  0
LTYPE
  5
2D
330
5
100
AcDbSymbolTableRecord
100
AcDbLinetypeTableRecord
  2
CENTERX2
 70
     0
  3
Center (2x) ________  __  ________  __  _____
 72
    65
 73
     4
 40
0.8
 49
0.5
 74
     0
 49
-0.1
 74
     0
 49
0.1
 74
     0
 49
-0.1
 74
     0
  0
LTYPE
  5
2E
330
5
100
AcDbSymbolTableRecord
100
AcDbLinetypeTableRecord
  2
DOT2
 70
     0
  3
Dot (.5x) ........................................
 72
    65
 73
     2
 40
0.025
 49
0.0
 74
     0
 49
-0.025
 74
     0
  0
ENDTAB
  0
TABLE
  2
LAYER
  5
2
330
0
100
AcDbSymbolTable
 70
     3
  0
LAYER
  5
10
330
2
100
AcDbSymbolTableRecord
100
AcDbLayerTableRecord
  2
0
 70
     0
 62
     7
  6
Continuous
370
    -3
390
F
  0
LAYER
  5
2F
330
2
100
AcDbSymbolTableRecord
100
AcDbLayerTableRecord
  2
SLD-0
 70
     0
 62
    -7
  6
Continuous
370
    -3
390
F
  0
LAYER
  5
30
330
2
100
AcDbSymbolTableRecord
100
AcDbLayerTableRecord
  2
FORMAT
 70
     0
 62
     7
  6
Continuous
370
    -3
390
F
  0
ENDTAB
  0
TABLE
  2
STYLE
  5
3
330
0
100
AcDbSymbolTable
 70
     2
  0
STYLE
  5
11
330
3
100
AcDbSymbolTableRecord
100
AcDbTextStyleTableRecord
  2
Standard
 70
     0
 40
0.0
 41
1.0
 50
0.0
 71
     0
 42
0.2
  3
txt
  4

  0
STYLE
  5
19B
330
3
100
AcDbSymbolTableRecord
100
AcDbTextStyleTableRecord
  2
SLDTEXTSTYLE0
 70
     0
 40
0.0
 41
0.75
 50
0.0
 71
     0
 42
0.2
  3
TXT
  4

  0
ENDTAB
  0
TABLE
  2
VIEW
  5
6
330
0
100
AcDbSymbolTable
 70
     0
  0
ENDTAB
  0
TABLE
  2
UCS
  5
7
330
0
100
AcDbSymbolTable
 70
     0
  0
ENDTAB
  0
TABLE
  2
APPID
  5
9
330
0
100
AcDbSymbolTable
 70
     1
  0
APPID
  5
12
330
9
100
AcDbSymbolTableRecord
100
AcDbRegAppTableRecord
  2
ACAD
 70
     0
  0
ENDTAB
  0
TABLE
  2
DIMSTYLE
  5
A
330
0
100
AcDbSymbolTable
 70
     1
100
AcDbDimStyleTable
 71
     0
  0
DIMSTYLE
105
27
330
A
100
AcDbSymbolTableRecord
100
AcDbDimStyleTableRecord
  2
Standard
 70
     0
340
11
  0
ENDTAB
  0
TABLE
  2
BLOCK_RECORD
  5
1
330
0
100
AcDbSymbolTable
 70
     3
  0
BLOCK_RECORD
  5
1F
330
1
100
AcDbSymbolTableRecord
100
AcDbBlockTableRecord
  2
*Model_Space
340
22
  0
BLOCK_RECORD
  5
1B
330
1
100
AcDbSymbolTableRecord
100
AcDbBlockTableRecord
  2
*Paper_Space
340
1E
  0
BLOCK_RECORD
  5
23
330
1
100
AcDbSymbolTableRecord
100
AcDbBlockTableRecord
  2
*Paper_Space0
340
26
  0
BLOCK_RECORD
  5
198
330
1
100
AcDbSymbolTableRecord
100
AcDbBlockTableRecord
  2
SW_NOTE_0
340
0
1001
ACAD
1000
DesignCenter Data
1002
{
1070
     1
1070
     0
1002
}
  0
ENDTAB
  0
ENDSEC
  0
SECTION
  2
BLOCKS
  0
BLOCK
  5
20
330
1F
100
AcDbEntity
  8
0
100
AcDbBlockBegin
  2
*Model_Space
 70
     0
 10
0.0
 20
0.0
 30
0.0
  3
*Model_Space
  1

  0
ENDBLK
  5
21
330
1F
100
AcDbEntity
  8
0
100
AcDbBlockEnd
  0
BLOCK
  5
1C
330
1B
100
AcDbEntity
 67
     1
  8
0
100
AcDbBlockBegin
  2
*Paper_Space
 70
     0
 10
0.0
 20
0.0
 30
0.0
  3
*Paper_Space
  1

  0
ENDBLK
  5
1D
330
1B
100
AcDbEntity
 67
     1
  8
0
100
AcDbBlockEnd
  0
BLOCK
  5
24
330
23
100
AcDbEntity
  8
0
100
AcDbBlockBegin
  2
*Paper_Space0
 70
     0
 10
0.0
 20
0.0
 30
0.0
  3
*Paper_Space0
  1

  0
ENDBLK
  5
25
330
23
100
AcDbEntity
  8
0
100
AcDbBlockEnd
  0
BLOCK
  5
199
330
198
100
AcDbEntity
  8
0
100
AcDbBlockBegin
  2
SW_NOTE_0
 70
     0
 10
0.0
 20
0.0
 30
0.0
  3
SW_NOTE_0
  1

  0
MTEXT
  5
19C
330
198
100
AcDbEntity
  8
FORMAT
 62
     0
100
AcDbMText
 10
0.0
 20
1.330566406249998
 30
0.0
 40
1.041666666666666
 41
0.0
 71
     1
 72
     1
  1
TITUS
  7
SLDTEXTSTYLE0
 73
     1
 44
1.0
  0
MTEXT
  5
19D
330
198
100
AcDbEntity
  8
FORMAT
 62
     0
100
AcDbMText
 10
0.346257666668554
 20
-0.0583224291876561
 30
0.0
 40
1.041666666666666
 41
0.0
 71
     1
 72
     1
  1
TQS
  7
SLDTEXTSTYLE0
 73
     1
 44
1.0
  0
MTEXT
  5
19E
330
198
100
AcDbEntity
  8
FORMAT
 62
     0
100
AcDbMText
 10
-0.9432870630673535
 20
-1.44721126462531
 30
0.0
 40
1.041666666666666
 41
0.0
 71
     1
 72
     1
  1
SIZE 2-4
  7
SLDTEXTSTYLE0
 73
     1
 44
1.0
  0
MTEXT
  5
19F
330
198
100
AcDbEntity
  8
FORMAT
 62
     0
100
AcDbMText
 10
-4.192707898813909
 20
-2.836100100062965
 30
0.0
 40
1.041666666666666
 41
0.0
 71
     1
 72
     1
  1
W/ELECTRIC HEAT
  7
SLDTEXTSTYLE0
 73
     1
 44
1.0
  0
MTEXT
  5
1A0
330
198
100
AcDbEntity
  8
FORMAT
 62
     0
100
AcDbMText
 10
-1.304976671464799
 20
-4.224988935500619
 30
0.0
 40
1.041666666666666
 41
0.0
 71
     1
 72
     1
  1
12" INLET
  7
SLDTEXTSTYLE0
 73
     1
 44
1.0
  0
ENDBLK
  5
19A
330
198
100
AcDbEntity
  8
0
100
AcDbBlockEnd
  0
ENDSEC
  0
SECTION
  2
ENTITIES
  0
LINE
  5
3E
330
1F
100
AcDbEntity
  8
0
  6
Continuous
 62
     7
370
    -3
100
AcDbLine
 10
-33.76285374439355
 20
8.749126644356209
 30
0.0
 11
-30.3348521716269
 21
8.749126644356199
 31
0.0
  0
LINE
  5
40
330
1F
100
AcDbEntity
  8
0
  6
Continuous
 62
     7
370
    -3
100
AcDbLine
 10
-30.33485217162686
 20
20.62412687667351
 30
0.0
 11
-33.76285374439351
 21
20.62412687667352
 31
0.0
  0
LINE
  5
41
330
1F
100
AcDbEntity
  8
0
  6
Continuous
 62
     7
370
    -3
100
AcDbLine
 10
3.566147241134981
 20
6.691627106099613
 30
0.0
 11
-27.43385304421639
 21
6.691627106099729
 31
0.0
  0
LINE
  5
42
330
1F
100
AcDbEntity
  8
0
  6
Continuous
 62
     7
370
    -3
100
AcDbLine
 10
3.566147241134959
 20
0.4416260266454189
 30
0.0
 11
3.566147241134981
 21
6.691627106099613
 31
0.0
  0
LINE
  5
43
330
1F
100
AcDbEntity
  8
0
  6
Continuous
 62
     7
370
    -3
100
AcDbLine
 10
-27.43385304421641
 20
0.4416260266455326
 30
0.0
 11
3.566147241134959
 21
0.4416260266454189
 31
0.0
  0
LINE
  5
44
330
1F
100
AcDbEntity
  8
0
  6
Continuous
 62
     7
370
    -3
100
AcDbLine
 10
-27.43385304421639
 20
6.691627106099729
 30
0.0
 11
-27.43385304421641
 21
0.4416260266455326
 31
0.0
  0
LINE
  5
45
330
1F
100
AcDbEntity
  8
0
  6
Continuous
 62
     7
370
    -3
100
AcDbLine
 10
10.59314649130674
 20
25.38162691762689
 30
0.0
 11
10.59314649130679
 21
39.38162674843417
 31
0.0
  0
LINE
  5
46
330
1F
100
AcDbEntity
  8
0
  6
Continuous
 62
     7
370
    -3
100
AcDbLine
 10
20.34314756512905
 20
39.38162674843413
 30
0.0
 11
20.34314756512906
 21
39.63162716707463
 31
0.0
  0
LINE
  5
47
330
1F
100
AcDbEntity
  8
0
  6
Continuous
 62
     7
370
    -3
100
AcDbLine
 10
20.34314756512906
 20
39.63162716707463
 30
0.0
 11
20.44314726325735
 21
39.63162716707463
 31
0.0
  0
LINE
  5
48
330
1F
100
AcDbEntity
  8
0
  6
Continuous
 62
     7
370
    -3
100
AcDbLine
 10
20.343147565129
 20
25.13162693898126
 30
0.0
 11
20.44314726325729
 21
25.13162693898126
 31
0.0
  0
LINE
  5
49
330
1F
100
AcDbEntity
  8
0
  6
Continuous
 62
     7
370
    -3
100
AcDbLine
 10
20.343147565129
 20
25.13162693898126
 30
0.0
 11
20.343147565129
 21
25.38162691762684
 31
0.0
  0
LINE
  5
4A
330
1F
100
AcDbEntity
  8
0
  6
Continuous
 62
     7
370
    -3
100
AcDbLine
 10
10.59314649130674
 20
25.38162691762689
 30
0.0
 11
20.343147565129
 21
25.38162691762684
 31
0.0
  0
LINE
  5
4B
330
1F
100
AcDbEntity
  8
0
  6
Continuous
 62
     7
370
    -3
100
AcDbLine
 10
10.59314649130679
 20
39.38162674843417
 30
0.0
 11
20.34314756512905
 21
39.38162674843413
 31
0.0
  0
LINE
  5
4C
330
1F
100
AcDbEntity
  8
0
  6
Continuous
 62
     7
370
    -3
100
AcDbLine
 10
20.44314726325729
 20
25.13162693898126
 30
0.0
 11
20.44314726325735
 21
39.63162716707463
 31
0.0
  0
LINE
  5
4D
330
1F
100
AcDbEntity
  8
0
  6
Continuous
 62
     7
370
    -3
100
AcDbLine
 10
11.17399844792202
 20
21.38162681930268
 30
0.0
 11
19.99609365432538
 21
21.38162681930265
 31
0.0
  0
LINE
  5
4E
330
1F
100
AcDbEntity
  8
0
  6
Continuous
 62
     7
370
    -3
100
AcDbLine
 10
11.17399844792204
 20
25.38162691762688
 30
0.0
 11
11.17399844792202
 21
21.38162681930268
 31
0.0
  0
LINE
  5
4F
330
1F
100
AcDbEntity
  8
0
  6
Continuous
 62
     7
370
    -3
100
AcDbLine
 10
19.99609365432538
 20
21.38162681930265
 30
0.0
 11
19.99609365432539
 21
25.38162691762685
 31
0.0
  0
LINE
  5
5F
330
1F
100
AcDbEntity
  8
0
  6
Continuous
 62
     7
370
    -3
100
AcDbLine
 10
-9.958853221488743
 20
42.00162634864196
 30
0.0
 11
-9.75685321876001
 21
42.00162634864196
 31
0.0
  0
LINE
  5
60
330
1F
100
AcDbEntity
  8
0
  6
Continuous
 62
     7
370
    -3
100
AcDbLine
 10
-9.898853222947305
 20
7.751626487563022
 30
0.0
 11
-9.816853221884981
 21
7.751626487563022
 31
0.0
  0
LINE
  5
61
330
1F
100
AcDbEntity
  8
0
  6
Continuous
 62
     7
370
    -3
100
AcDbLine
 10
-9.898853222947305
 20
7.711626842975663
 30
0.0
 11
-9.816853221884981
 21
7.711626842975663
 31
0.0
  0
LINE
  5
76
330
1F
100
AcDbEntity
  8
0
  6
Continuous
 62
     7
370
    -3
100
AcDbLine
 10
-27.43385304421639
 20
6.606627128026729
 30
0.0
 11
-28.39845918100398
 21
6.606627128026731
 31
0.0
  0
LINE
  5
77
330
1F
100
AcDbEntity
  8
0
  6
Continuous
 62
     7
370
    -3
100
AcDbLine
 10
-28.48345915907698
 20
6.691627106099731
 30
0.0
 11
-28.39845918100398
 21
6.606627128026731
 31
0.0
  0
LINE
  5
78
330
1F
100
AcDbEntity
  8
0
  6
Continuous
 62
     7
370
    -3
100
AcDbLine
 10
-30.21885308499146
 20
42.84162709821503
 30
0.0
 11
-9.958853221488739
 21
42.84162709821496
 31
0.0
  0
LINE
  5
79
330
1F
100
AcDbEntity
  8
0
  6
Continuous
 62
     7
370
    -3
100
AcDbLine
 10
-30.20385336493617
 20
42.88162674280238
 30
0.0
 11
-9.958853221488739
 21
42.88162674280232
 31
0.0
  0
LINE
  5
7A
330
1F
100
AcDbEntity
  8
0
  6
Continuous
 62
     7
370
    -3
100
AcDbLine
 10
-9.958853221488739
 20
42.88162674280232
 30
0.0
 11
-9.958853221488739
 21
42.84162709821496
 31
0.0
  0
SPLINE
  5
7B
330
1F
100
AcDbEntity
  8
0
  6
Continuous
 62
     7
370
    -3
100
AcDbSpline
210
0.0
220
0.0
230
1.0
 70
     8
 71
     3
 72
    11
 73
     7
 74
     0
 42
0.0000000001
 43
0.0000000001
 40
0.0
 40
0.0
 40
0.0
 40
0.0
 40
0.2499988114374716
 40
0.5
 40
0.7500011885625284
 40
1.0
 40
1.0
 40
1.0
 40
1.0
 10
-30.20385336493617
 20
42.88162674280238
 30
0.0
 10
-30.20510334457877
 20
42.88102548580922
 30
0.0
 10
-30.20760331574945
 20
42.87982296610578
 30
0.0
 10
-30.21135322496382
 20
42.87057313800902
 30
0.0
 10
-30.21510313417818
 20
42.85735136329907
 30
0.0
 10
-30.21760310534887
 20
42.84686850329699
 30
0.0
 10
-30.21885308499146
 20
42.84162709821503
 30
0.0
  0
LINE
  5
7C
330
1F
100
AcDbEntity
  8
0
  6
Continuous
 62
     7
370
    -3
100
AcDbLine
 10
-30.24385418284344
 20
6.756626675219169
 30
0.0
 11
-30.26885293405574
 21
6.756626675219169
 31
0.0
  0
LINE
  5
7D
330
1F
100
AcDbEntity
  8
0
  6
Continuous
 62
     7
370
    -3
100
AcDbLine
 10
-30.26885293405574
 20
6.756626675219169
 30
0.0
 11
-30.26885293405561
 21
42.81662717368295
 31
0.0
  0
LINE
  5
7E
330
1F
100
AcDbEntity
  8
0
  6
Continuous
 62
     7
370
    -3
100
AcDbLine
 10
-30.24385418284331
 20
42.81662717368295
 30
0.0
 11
-30.26885293405561
 21
42.81662717368295
 31
0.0
  0
LINE
  5
7F
330
1F
100
AcDbEntity
  8
0
  6
Continuous
 62
     7
370
    -3
100
AcDbLine
 10
-9.958853221488743
 20
41.88662693045838
 30
0.0
 11
-9.958853221488739
 21
42.84162709821496
 31
0.0
  0
LINE
  5
80
330
1F
100
AcDbEntity
  8
0
  6
Continuous
 62
     7
370
    -3
100
AcDbLine
 10
-9.938853225030408
 20
41.88662693045838
 30
0.0
 11
-9.958853221488743
 21
41.88662693045838
 31
0.0
  0
LINE
  5
81
330
1F
100
AcDbEntity
  8
0
  6
Continuous
 62
     7
370
    -3
100
AcDbLine
 10
-9.938853225030408
 20
41.88662693045838
 30
0.0
 11
-9.938853225030534
 21
7.686626918443591
 31
0.0
  0
LINE
  5
82
330
1F
100
AcDbEntity
  8
0
  6
Continuous
 62
     7
370
    -3
100
AcDbLine
 10
-9.938853225030534
 20
7.686626918443591
 30
0.0
 11
-9.958853221488869
 21
7.686626918443591
 31
0.0
  0
LINE
  5
83
330
1F
100
AcDbEntity
  8
0
  6
Continuous
 62
     7
370
    -3
100
AcDbLine
 10
-9.958853221488869
 20
7.686626918443591
 30
0.0
 11
-9.958853221488872
 21
6.731626750687023
 31
0.0
  0
LINE
  5
84
330
1F
100
AcDbEntity
  8
0
  6
Continuous
 62
     7
370
    -3
100
AcDbLine
 10
-9.958853221488872
 20
6.731626750687023
 30
0.0
 11
-30.21885308499159
 21
6.731626750687097
 31
0.0
  0
LINE
  5
85
330
1F
100
AcDbEntity
  8
0
  6
Continuous
 62
     7
370
    -3
100
AcDbLine
 10
-30.21885308499159
 20
6.731626750687097
 30
0.0
 11
-30.24385418284344
 21
6.756626675219169
 31
0.0
  0
LINE
  5
C2
330
1F
100
AcDbEntity
  8
0
  6
Continuous
 62
     7
370
    -3
100
AcDbLine
 10
-30.21885308499146
 20
42.84162709821503
 30
0.0
 11
-30.24385418284331
 21
42.81662717368295
 31
0.0
  0
LINE
  5
C3
330
1F
100
AcDbEntity
  8
0
  6
Continuous
 62
     7
370
    -3
100
AcDbLine
 10
-9.958853221488872
 20
6.691627106099663
 30
0.0
 11
-9.958853221488872
 21
6.731626750687023
 31
0.0
  0
LINE
  5
C4
330
1F
100
AcDbEntity
  8
0
  6
Continuous
 62
     7
370
    -3
100
AcDbLine
 10
-27.43387299065263
 20
6.691627106099729
 30
0.0
 11
-30.2038533649363
 21
6.691627106099738
 31
0.0
  0
SPLINE
  5
C5
330
1F
100
AcDbEntity
  8
0
  6
Continuous
 62
     7
370
    -3
100
AcDbSpline
210
0.0
220
0.0
230
1.0
 70
     8
 71
     3
 72
    11
 73
     7
 74
     0
 42
0.0000000001
 43
0.0000000001
 40
0.0
 40
0.0
 40
0.0
 40
0.0
 40
0.2499988114374716
 40
0.5
 40
0.7500011885625284
 40
1.0
 40
1.0
 40
1.0
 40
1.0
 10
-30.2038533649363
 20
6.691627106099738
 30
0.0
 10
-30.2051033445789
 20
6.692228363092916
 30
0.0
 10
-30.20760331574958
 20
6.693430882796345
 30
0.0
 10
-30.21135322496395
 20
6.702680710893108
 30
0.0
 10
-30.21510313417831
 20
6.715902485603061
 30
0.0
 10
-30.217603105349
 20
6.726385345605129
 30
0.0
 10
-30.21885308499159
 20
6.731626750687097
 30
0.0
  0
LINE
  5
C6
330
1F
100
AcDbEntity
  8
0
  6
Continuous
 62
     7
370
    -3
100
AcDbLine
 10
-9.898853222947305
 20
7.686626918443591
 30
0.0
 11
-9.938853225030534
 21
7.686626918443591
 31
0.0
  0
LINE
  5
C7
330
1F
100
AcDbEntity
  8
0
  6
Continuous
 62
     7
370
    -3
100
AcDbLine
 10
-9.898853222947179
 20
41.88662693045838
 30
0.0
 11
-9.938853225030408
 21
41.88662693045838
 31
0.0
  0
LINE
  5
C8
330
1F
100
AcDbEntity
  8
0
  6
Continuous
 62
     7
370
    -3
100
AcDbLine
 10
-9.898853222947179
 20
41.88662693045838
 30
0.0
 11
-9.898853222947305
 21
7.686626918443591
 31
0.0
  0
LINE
  5
C9
330
1F
100
AcDbEntity
  8
0
  6
Continuous
 62
     7
370
    -3
100
AcDbLine
 10
-30.30885375196287
 20
6.756626675219169
 30
0.0
 11
-30.30885375196274
 21
42.81662717368295
 31
0.0
  0
LINE
  5
CA
330
1F
100
AcDbEntity
  8
0
  6
Continuous
 62
     7
370
    -3
100
AcDbLine
 10
-30.30885375196274
 20
42.81662717368295
 30
0.0
 11
-30.26885293405561
 21
42.81662717368295
 31
0.0
  0
LINE
  5
CB
330
1F
100
AcDbEntity
  8
0
  6
Continuous
 62
     7
370
    -3
100
AcDbLine
 10
-30.26885293405574
 20
6.756626675219169
 30
0.0
 11
-30.30885375196287
 21
6.756626675219169
 31
0.0
  0
LINE
  5
CC
330
1F
100
AcDbEntity
  8
0
  6
Continuous
 62
     7
370
    -3
100
AcDbLine
 10
10.52814692218737
 20
42.81662717368281
 30
0.0
 11
10.55314567339966
 21
42.8166271736828
 31
0.0
  0
LINE
  5
CD
330
1F
100
AcDbEntity
  8
0
  6
Continuous
 62
     7
370
    -3
100
AcDbLine
 10
10.55314567339966
 20
42.8166271736828
 30
0.0
 11
10.55314567339953
 21
6.756626675219018
 31
0.0
  0
LINE
  5
CE
330
1F
100
AcDbEntity
  8
0
  6
Continuous
 62
     7
370
    -3
100
AcDbLine
 10
10.52814692218724
 20
6.75662667521902
 30
0.0
 11
10.55314567339953
 21
6.756626675219018
 31
0.0
  0
LINE
  5
CF
330
1F
100
AcDbEntity
  8
0
  6
Continuous
 62
     7
370
    -3
100
AcDbLine
 10
10.50314582433539
 20
6.731626750686948
 30
0.0
 11
10.52814692218724
 21
6.75662667521902
 31
0.0
  0
LINE
  5
D0
330
1F
100
AcDbEntity
  8
0
  6
Continuous
 62
     7
370
    -3
100
AcDbLine
 10
10.50314582433539
 20
6.731626750686948
 30
0.0
 11
-9.756853218760141
 21
6.731626750687023
 31
0.0
  0
LINE
  5
D1
330
1F
100
AcDbEntity
  8
0
  6
Continuous
 62
     7
370
    -3
100
AcDbLine
 10
-9.756853218760138
 20
7.686626918443591
 30
0.0
 11
-9.756853218760141
 21
6.731626750687023
 31
0.0
  0
LINE
  5
D2
330
1F
100
AcDbEntity
  8
0
  6
Continuous
 62
     7
370
    -3
100
AcDbLine
 10
-9.776853224385032
 20
7.686626918443591
 30
0.0
 11
-9.756853218760138
 21
7.686626918443591
 31
0.0
  0
LINE
  5
D3
330
1F
100
AcDbEntity
  8
0
  6
Continuous
 62
     7
370
    -3
100
AcDbLine
 10
-9.776853224385032
 20
7.686626918443591
 30
0.0
 11
-9.776853224384906
 21
41.88662693045838
 31
0.0
  0
LINE
  5
D4
330
1F
100
AcDbEntity
  8
0
  6
Continuous
 62
     7
370
    -3
100
AcDbLine
 10
-9.776853224384906
 20
41.88662693045838
 30
0.0
 11
-9.75685321876001
 21
41.88662693045838
 31
0.0
  0
LINE
  5
D5
330
1F
100
AcDbEntity
  8
0
  6
Continuous
 62
     7
370
    -3
100
AcDbLine
 10
-9.75685321876001
 20
41.88662693045838
 30
0.0
 11
-9.756853218760008
 21
42.84162709821496
 31
0.0
  0
LINE
  5
D6
330
1F
100
AcDbEntity
  8
0
  6
Continuous
 62
     7
370
    -3
100
AcDbLine
 10
-9.756853218760008
 20
42.84162709821496
 30
0.0
 11
10.50314582433552
 21
42.84162709821488
 31
0.0
  0
LINE
  5
D7
330
1F
100
AcDbEntity
  8
0
  6
Continuous
 62
     7
370
    -3
100
AcDbLine
 10
10.50314582433552
 20
42.84162709821488
 30
0.0
 11
10.52814692218737
 21
42.81662717368281
 31
0.0
  0
LINE
  5
114
330
1F
100
AcDbEntity
  8
0
  6
Continuous
 62
     7
370
    -3
100
AcDbLine
 10
-9.756853218760008
 20
42.88162674280232
 30
0.0
 11
-9.756853218760008
 21
42.84162709821496
 31
0.0
  0
LINE
  5
115
330
1F
100
AcDbEntity
  8
0
  6
Continuous
 62
     7
370
    -3
100
AcDbLine
 10
-9.756853218760008
 20
42.88162674280232
 30
0.0
 11
10.48814610428023
 21
42.88162674280225
 31
0.0
  0
SPLINE
  5
116
330
1F
100
AcDbEntity
  8
0
  6
Continuous
 62
     7
370
    -3
100
AcDbSpline
210
0.0
220
0.0
230
1.0
 70
     8
 71
     3
 72
    11
 73
     7
 74
     0
 42
0.0000000001
 43
0.0000000001
 40
0.0
 40
0.0
 40
0.0
 40
0.0
 40
0.2499988114374716
 40
0.5
 40
0.7500011885625284
 40
1.0
 40
1.0
 40
1.0
 40
1.0
 10
10.48814610428023
 20
42.88162674280225
 30
0.0
 10
10.48939608392283
 20
42.88102548580905
 30
0.0
 10
10.49189605509351
 20
42.87982296610563
 30
0.0
 10
10.49564596430788
 20
42.87057313800887
 30
0.0
 10
10.49939587352224
 20
42.85735136329892
 30
0.0
 10
10.50189584469292
 20
42.84686850329684
 30
0.0
 10
10.50314582433552
 20
42.84162709821488
 30
0.0
  0
LINE
  5
117
330
1F
100
AcDbEntity
  8
0
  6
Continuous
 62
     7
370
    -3
100
AcDbLine
 10
10.4881461042801
 20
6.691627106099589
 30
0.0
 11
3.566167187571224
 21
6.691627106099613
 31
0.0
  0
LINE
  5
118
330
1F
100
AcDbEntity
  8
0
  6
Continuous
 62
     7
370
    -3
100
AcDbLine
 10
-9.756853218760141
 20
6.691627106099663
 30
0.0
 11
-9.756853218760141
 21
6.731626750687023
 31
0.0
  0
SPLINE
  5
119
330
1F
100
AcDbEntity
  8
0
  6
Continuous
 62
     7
370
    -3
100
AcDbSpline
210
0.0
220
0.0
230
1.0
 70
     8
 71
     3
 72
    11
 73
     7
 74
     0
 42
0.0000000001
 43
0.0000000001
 40
0.0
 40
0.0
 40
0.0
 40
0.0
 40
0.2499988114374716
 40
0.5
 40
0.7500011885625284
 40
1.0
 40
1.0
 40
1.0
 40
1.0
 10
10.4881461042801
 20
6.691627106099589
 30
0.0
 10
10.4893960839227
 20
6.692228363092768
 30
0.0
 10
10.49189605509338
 20
6.693430882796197
 30
0.0
 10
10.49564596430775
 20
6.702680710892959
 30
0.0
 10
10.49939587352211
 20
6.715902485602912
 30
0.0
 10
10.50189584469279
 20
6.726385345604981
 30
0.0
 10
10.50314582433539
 20
6.731626750686948
 30
0.0
  0
LINE
  5
11A
330
1F
100
AcDbEntity
  8
0
  6
Continuous
 62
     7
370
    -3
100
AcDbLine
 10
-9.816853221884855
 20
41.88662693045838
 30
0.0
 11
-9.776853224384906
 21
41.88662693045838
 31
0.0
  0
LINE
  5
11B
330
1F
100
AcDbEntity
  8
0
  6
Continuous
 62
     7
370
    -3
100
AcDbLine
 10
-9.816853221884981
 20
7.686626918443591
 30
0.0
 11
-9.776853224385032
 21
7.686626918443591
 31
0.0
  0
LINE
  5
11C
330
1F
100
AcDbEntity
  8
0
  6
Continuous
 62
     7
370
    -3
100
AcDbLine
 10
-9.816853221884981
 20
7.686626918443591
 30
0.0
 11
-9.816853221884855
 21
41.88662693045838
 31
0.0
  0
LINE
  5
11D
330
1F
100
AcDbEntity
  8
0
  6
Continuous
 62
     7
370
    -3
100
AcDbLine
 10
10.5931464913068
 20
42.8166271736828
 30
0.0
 11
10.59314649130679
 21
39.38162674843417
 31
0.0
  0
LINE
  5
11E
330
1F
100
AcDbEntity
  8
0
  6
Continuous
 62
     7
370
    -3
100
AcDbLine
 10
10.59314649130674
 20
25.38162691762689
 30
0.0
 11
10.59314649130667
 21
6.756626675219018
 31
0.0
  0
LINE
  5
11F
330
1F
100
AcDbEntity
  8
0
  6
Continuous
 62
     7
370
    -3
100
AcDbLine
 10
10.59314649130667
 20
6.756626675219018
 30
0.0
 11
10.55314567339953
 21
6.756626675219018
 31
0.0
  0
LINE
  5
120
330
1F
100
AcDbEntity
  8
0
  6
Continuous
 62
     7
370
    -3
100
AcDbLine
 10
10.55314567339966
 20
42.8166271736828
 30
0.0
 11
10.5931464913068
 21
42.8166271736828
 31
0.0
  0
LINE
  5
123
330
1F
100
AcDbEntity
  8
0
  6
Continuous
 62
     7
370
    -3
100
AcDbLine
 10
10.52314623328909
 20
42.82162668926131
 30
0.0
 11
10.52314623328909
 21
42.82462686793633
 31
0.0
  0
SPLINE
  5
124
330
1F
100
AcDbEntity
  8
0
  6
Continuous
 62
     7
370
    -3
100
AcDbSpline
210
0.0
220
0.0
230
1.0
 70
    24
 71
     1
 72
     4
 73
     2
 74
     0
 42
0.0000000001
 43
0.0000000001
 40
0.0
 40
0.0
 40
1.0
 40
1.0
 10
10.52314623328896
 20
6.738626776488719
 30
0.0
 10
10.51014585013716
 20
6.738626776488719
 30
0.0
  0
LINE
  5
125
330
1F
100
AcDbEntity
  8
0
  6
Continuous
 62
     7
370
    -3
100
AcDbLine
 10
10.52314623328896
 20
6.751627159640517
 30
0.0
 11
10.52314623328896
 21
6.738626776488719
 31
0.0
  0
SPLINE
  5
126
330
1F
100
AcDbEntity
  8
0
  6
Continuous
 62
     7
370
    -3
100
AcDbSpline
210
0.0
220
0.0
230
1.0
 70
     8
 71
     3
 72
    11
 73
     7
 74
     0
 42
0.0000000001
 43
0.0000000001
 40
0.0
 40
0.0
 40
0.0
 40
0.0
 40
0.2500037456597473
 40
0.4999995440185127
 40
0.7500018799660892
 40
1.0
 40
1.0
 40
1.0
 40
1.0
 10
10.52314623328909
 20
42.82462686793633
 30
0.0
 10
10.52236427896266
 20
42.83144072052595
 30
0.0
 10
10.5208003951671
 20
42.84506820910151
 30
0.0
 10
10.5087773282742
 20
42.86225727821552
 30
0.0
 10
10.49158887989262
 20
42.87428149859763
 30
0.0
 10
10.47796095320911
 20
42.87584532207699
 30
0.0
 10
10.47114704732146
 20
42.87662722722374
 30
0.0
  0
SPLINE
  5
127
330
1F
100
AcDbEntity
  8
0
  6
Continuous
 62
     7
370
    -3
100
AcDbSpline
210
0.0
220
0.0
230
1.0
 70
     8
 71
     3
 72
    11
 73
     7
 74
     0
 42
0.0000000001
 43
0.0000000001
 40
0.0
 40
0.0
 40
0.0
 40
0.0
 40
0.2500037456597473
 40
0.4999995440185127
 40
0.7500018799660892
 40
1.0
 40
1.0
 40
1.0
 40
1.0
 10
10.52314623328896
 20
6.738626776488719
 30
0.0
 10
10.52236427896253
 20
6.731812923899085
 30
0.0
 10
10.52080039516697
 20
6.718185435323524
 30
0.0
 10
10.50877732827407
 20
6.700996366209524
 30
0.0
 10
10.49158887989249
 20
6.688972145827419
 30
0.0
 10
10.47796095320898
 20
6.687408322348048
 30
0.0
 10
10.47114704732133
 20
6.686626417201307
 30
0.0
  0
LINE
  5
128
330
1F
100
AcDbEntity
  8
0
  6
Continuous
 62
     7
370
    -3
100
AcDbLine
 10
10.47114704732133
 20
6.686626417201307
 30
0.0
 11
9.773147324007027
 21
6.686626417201312
 31
0.0
  0
LINE
  5
129
330
1F
100
AcDbEntity
  8
0
  6
Continuous
 62
     7
370
    -3
100
AcDbLine
 10
9.773147324007027
 20
6.691627106099593
 30
0.0
 11
9.773147324007027
 21
6.686626417201312
 31
0.0
  0
LINE
  5
163
330
1F
100
AcDbEntity
  8
0
  6
Continuous
 62
     7
370
    -3
100
AcDbLine
 10
-33.76285374439355
 20
8.749126644356209
 30
0.0
 11
-33.76285374439351
 21
20.62412687667352
 31
0.0
  0
LINE
  5
165
330
1F
100
AcDbEntity
  8
0
  6
Continuous
 62
     7
370
    -3
100
AcDbLine
 10
-30.33485217162691
 20
6.739021011934631
 30
0.0
 11
-30.33485217162685
 21
23.82423322877183
 31
0.0
  0
LINE
  5
168
330
1F
100
AcDbEntity
  8
0
  6
Continuous
 62
     7
370
    -3
100
AcDbLine
 10
-30.27285395450228
 20
6.748626980965655
 30
0.0
 11
-30.27285395450228
 21
6.756626675219171
 31
0.0
  0
SPLINE
  5
169
330
1F
100
AcDbEntity
  8
0
  6
Continuous
 62
     7
370
    -3
100
AcDbSpline
210
0.0
220
0.0
230
1.0
 70
     8
 71
     3
 72
    11
 73
     7
 74
     0
 42
0.0000000001
 43
0.0000000001
 40
0.0
 40
0.0
 40
0.0
 40
0.0
 40
0.2500073563707842
 40
0.5000062091806382
 40
0.7500150459212662
 40
1.0
 40
1.0
 40
1.0
 40
1.0
 10
-30.27285395450228
 20
6.748626980965655
 30
0.0
 10
-30.27378579723751
 20
6.747826389728695
 30
0.0
 10
-30.275649451013
 20
6.746225234485481
 30
0.0
 10
-30.28998603236363
 20
6.7438234120057
 30
0.0
 10
-30.31048073561389
 20
6.741421456137346
 30
0.0
 10
-30.32672861832091
 20
6.739821134521928
 30
0.0
 10
-30.33485217162691
 20
6.739021011934631
 30
0.0
  0
SPLINE
  5
16A
330
1F
100
AcDbEntity
  8
0
  6
Continuous
 62
     7
370
    -3
100
AcDbSpline
210
0.0
220
0.0
230
1.0
 70
     8
 71
     3
 72
     9
 73
     5
 74
     0
 42
0.0000000001
 43
0.0000000001
 40
0.0
 40
0.0
 40
0.0
 40
0.0
 40
0.101552979932743
 40
1.0
 40
1.0
 40
1.0
 40
1.0
 10
-30.30885375196281
 20
23.82156018631771
 30
0.0
 10
-30.30960481551759
 20
23.82165067900952
 30
0.0
 10
-30.31700059607737
 20
23.82254176750209
 30
0.0
 10
-30.32640384797789
 20
23.8234327385178
 30
0.0
 10
-30.33485217162685
 20
23.82423322877183
 30
0.0
  0
SPLINE
  5
16B
330
1F
100
AcDbEntity
  8
0
  6
Continuous
 62
     7
370
    -3
100
AcDbSpline
210
0.0
220
0.0
230
1.0
 70
    24
 71
     1
 72
     4
 73
     2
 74
     0
 42
0.0000000001
 43
0.0000000001
 40
0.0
 40
0.0
 40
1.0
 40
1.0
 10
-30.33485217162685
 20
23.82462695089019
 30
0.0
 10
-30.33485217162685
 20
23.87662694351516
 30
0.0
  0
SPLINE
  5
16C
330
1F
100
AcDbEntity
  8
0
  6
Continuous
 62
     7
370
    -3
100
AcDbSpline
210
0.0
220
0.0
230
1.0
 70
     8
 71
     3
 72
     9
 73
     5
 74
     0
 42
0.0000000001
 43
0.0000000001
 40
0.0
 40
0.0
 40
0.0
 40
0.0
 40
0.8984266087034139
 40
1.0
 40
1.0
 40
1.0
 40
1.0
 10
-30.33485217162685
 20
23.87662694351516
 30
0.0
 10
-30.32640318649594
 20
23.87635924512828
 30
0.0
 10
-30.31699898469573
 20
23.87606128157257
 30
0.0
 10
-30.30960480397452
 20
23.87091135145227
 30
0.0
 10
-30.30885375196281
 20
23.87038825558502
 30
0.0
  0
SPLINE
  5
172
330
1F
100
AcDbEntity
  8
0
  6
Continuous
 62
     7
370
    -3
100
AcDbSpline
210
0.0
220
0.0
230
1.0
 70
    24
 71
     1
 72
     4
 73
     2
 74
     0
 42
0.0000000001
 43
0.0000000001
 40
0.0
 40
0.0
 40
1.0
 40
1.0
 10
-30.33485217162691
 20
6.738626776488873
 30
0.0
 10
-30.33485217162691
 20
6.68662641720146
 30
0.0
  0
SPLINE
  5
174
330
1F
100
AcDbEntity
  8
0
  6
Continuous
 62
     7
370
    -3
100
AcDbSpline
210
0.0
220
0.0
230
1.0
 70
     8
 71
     3
 72
    11
 73
     7
 74
     0
 42
0.0000000001
 43
0.0000000001
 40
0.0
 40
0.0
 40
0.0
 40
0.0
 40
0.2499858480324999
 40
0.4999943867839843
 40
0.7499929416165948
 40
1.0
 40
1.0
 40
1.0
 40
1.0
 10
-30.33485217162691
 20
6.68662641720146
 30
0.0
 10
-30.32672862691654
 20
6.687558935863307
 30
0.0
 10
-30.3104808001378
 20
6.689424057829874
 30
0.0
 10
-30.28998602384289
 20
6.703759070861798
 30
0.0
 10
-30.27564945314323
 20
6.724254026546306
 30
0.0
 10
-30.2737857979476
 20
6.740502570713355
 30
0.0
 10
-30.27285395450228
 20
6.748626980965655
 30
0.0
  0
LINE
  5
175
330
1F
100
AcDbEntity
  8
0
  6
Continuous
 62
     7
370
    -3
100
AcDbLine
 10
-30.23885349394516
 20
6.743627465387159
 30
0.0
 11
-30.27285395450228
 21
6.743627465387159
 31
0.0
  0
LINE
  5
176
330
1F
100
AcDbEntity
  8
0
  6
Continuous
 62
     7
370
    -3
100
AcDbLine
 10
-30.27285395450228
 20
6.748601167930522
 30
0.0
 11
-30.27285395450228
 21
6.743627465387159
 31
0.0
  0
LINE
  5
177
330
1F
100
AcDbEntity
  8
0
  6
Continuous
 62
     7
370
    -3
100
AcDbLine
 10
-30.23885349394516
 20
6.751627159640674
 30
0.0
 11
-30.23885349394516
 21
6.743627465387159
 31
0.0
  0
SPLINE
  5
17A
330
1F
100
AcDbEntity
  8
0
  6
Continuous
 62
     7
370
    -3
100
AcDbSpline
210
0.0
220
0.0
230
1.0
 70
     8
 71
     3
 72
    11
 73
     7
 74
     0
 42
0.0000000001
 43
0.0000000001
 40
0.0
 40
0.0
 40
0.0
 40
0.0
 40
0.1418560365658818
 40
0.4279140730412252
 40
0.713961881224452
 40
1.0
 40
1.0
 40
1.0
 40
1.0
 10
-30.23612904541822
 20
6.745180940774603
 30
0.0
 10
-30.23548316398481
 20
6.740606317168173
 30
0.0
 10
-30.2335348383332
 20
6.726806792893794
 30
0.0
 10
-30.21901557951109
 20
6.707570158584411
 30
0.0
 10
-30.19581772827013
 20
6.691060640570442
 30
0.0
 10
-30.17717484915582
 20
6.688938318932184
 30
0.0
 10
-30.1678535674757
 20
6.687877176085916
 30
0.0
  0
SPLINE
  5
17B
330
1F
100
AcDbEntity
  8
0
  6
Continuous
 62
     7
370
    -3
100
AcDbSpline
210
0.0
220
0.0
230
1.0
 70
     8
 71
     3
 72
    10
 73
     6
 74
     0
 42
0.0000000001
 43
0.0000000001
 40
0.0
 40
0.0
 40
0.0
 40
0.0
 40
0.1086927589926085
 40
0.782748235549049
 40
1.0
 40
1.0
 40
1.0
 40
1.0
 10
-30.21434284376082
 20
42.85956363767725
 30
0.0
 10
-30.21559832946145
 20
42.85876355337266
 30
0.0
 10
-30.2246396789132
 20
42.85300176589458
 30
0.0
 10
-30.23276328606309
 20
42.84025301506225
 30
0.0
 10
-30.23471473379108
 20
42.82822223676171
 30
0.0
 10
-30.23519038959486
 20
42.82528979361162
 30
0.0
  0
LINE
  5
17C
330
1F
100
AcDbEntity
  8
0
  6
Continuous
 62
     7
370
    -3
100
AcDbLine
 10
-29.48885341134345
 20
6.691627106099738
 30
0.0
 11
-29.48885341134345
 21
6.687877176085916
 31
0.0
  0
LINE
  5
17D
330
1F
100
AcDbEntity
  8
0
  6
Continuous
 62
     7
370
    -3
100
AcDbLine
 10
-30.1678535674757
 20
6.687877176085916
 30
0.0
 11
-29.48885341134345
 21
6.687877176085916
 31
0.0
  0
ARC
  5
17E
330
1F
100
AcDbEntity
  8
0
  6
Continuous
 62
     7
370
    -3
100
AcDbCircle
 10
-9.883853223311897
 20
7.166626924450945
 30
0.0
 40
0.0805000000000025
100
AcDbArc
 50
0.0
 51
158.6977589281466
  0
ARC
  5
17F
330
1F
100
AcDbEntity
  8
0
  6
Continuous
 62
     7
370
    -3
100
AcDbCircle
 10
-9.883853223311897
 20
7.166626924450945
 30
0.0
 40
0.0805000000000025
100
AcDbArc
 50
201.3022410718541
 51
0.0
  0
LINE
  5
180
330
1F
100
AcDbEntity
  8
0
  6
Continuous
 62
     7
370
    -3
100
AcDbLine
 10
-9.756853218760138
 20
7.57662701583852
 30
0.0
 11
-9.958853221488869
 21
7.57662701583852
 31
0.0
  0
ARC
  5
181
330
1F
100
AcDbEntity
  8
0
  6
Continuous
 62
     7
370
    -3
100
AcDbCircle
 10
-9.88385322331179
 20
42.40662692445098
 30
0.0
 40
0.0805000000000059
100
AcDbArc
 50
201.3022410718722
 51
158.6977589281191
  0
LINE
  5
182
330
1F
100
AcDbEntity
  8
0
  6
Continuous
 62
     7
370
    -3
100
AcDbLine
 10
-9.958853221488743
 20
41.99662683306345
 30
0.0
 11
-9.75685321876001
 21
41.99662683306345
 31
0.0
  0
LINE
  5
183
330
1F
100
AcDbEntity
  8
0
  6
Continuous
 62
     7
370
    -3
100
AcDbLine
 10
-9.958853221488743
 20
42.03662647765082
 30
0.0
 11
-9.75685321876001
 21
42.03662647765082
 31
0.0
  0
ARC
  5
184
330
1F
100
AcDbEntity
  8
0
  6
Continuous
 62
     7
370
    -3
100
AcDbCircle
 10
-9.883842112145806
 20
42.41662692445099
 30
0.0
 40
0.0940000000000018
100
AcDbArc
 50
217.061360350448
 51
142.9386396495561
  0
ARC
  5
186
330
1F
100
AcDbEntity
  8
0
  6
Continuous
 62
     7
370
    -3
100
AcDbCircle
 10
-9.883842112145936
 20
7.156626924450989
 30
0.0
 40
0.0940000000000009
100
AcDbArc
 50
217.0613603504599
 51
142.9386396495408
  0
LINE
  5
188
330
1F
100
AcDbEntity
  8
0
  6
Continuous
 62
     7
370
    -3
100
AcDbLine
 10
-9.958853221488871
 20
7.53662737125116
 30
0.0
 11
-9.756853218760138
 21
7.53662737125116
 31
0.0
  0
LINE
  5
189
330
1F
100
AcDbEntity
  8
0
  6
Continuous
 62
     7
370
    -3
100
AcDbLine
 10
-9.756853218760008
 20
42.78662656025253
 30
0.0
 11
-9.958853221488739
 21
42.78662656025253
 31
0.0
  0
LINE
  5
18A
330
1F
100
AcDbEntity
  8
0
  6
Continuous
 62
     7
370
    -3
100
AcDbLine
 10
-9.756853218760141
 20
6.786627288649448
 30
0.0
 11
-9.958853221488872
 21
6.786627288649448
 31
0.0
  0
LINE
  5
196
330
1F
100
AcDbEntity
  8
0
  6
Continuous
 62
     7
370
    -3
100
AcDbLine
 10
-9.756853218760008
 20
42.74662691566518
 30
0.0
 11
-9.958853221488739
 21
42.74662691566518
 31
0.0
  0
LINE
  5
197
330
1F
100
AcDbEntity
  8
0
  6
Continuous
 62
     7
370
    -3
100
AcDbLine
 10
-9.756853218760141
 20
6.826626933236807
 30
0.0
 11
-9.958853221488871
 21
6.826626933236807
 31
0.0
  0
MTEXT
  5
1A9
330
1F
100
AcDbEntity
  8
FORMAT
 62
     0
370
    -3
100
AcDbMText
 10
-21.699657104414
 20
28.52454580697306
 30
0.0
 40
1.041666666666666
 41
0.0
 71
     1
 72
     1
  1
TITUS
  7
SLDTEXTSTYLE0
 73
     1
 44
1.0
  0
MTEXT
  5
1AA
330
1F
100
AcDbEntity
  8
FORMAT
 62
     0
370
    -3
100
AcDbMText
 10
-21.35339943774545
 20
27.13565697153541
 30
0.0
 40
1.041666666666666
 41
0.0
 71
     1
 72
     1
  1
TQP
  7
SLDTEXTSTYLE0
 73
     1
 44
1.0
  0
MTEXT
  5
1AB
330
1F
100
AcDbEntity
  8
FORMAT
 62
     0
370
    -3
100
AcDbMText
 10
-22.64294416748136
 20
25.74676813609775
 30
0.0
 40
1.041666666666666
 41
0.0
 71
     1
 72
     1
  1
SIZE 2-4
  7
SLDTEXTSTYLE0
 73
     1
 44
1.0
  0
MTEXT
  5
1AC
330
1F
100
AcDbEntity
  8
FORMAT
 62
     0
370
    -3
100
AcDbMText
 10
-25.89236500322791
 20
24.35787930066009
 30
0.0
 40
1.041666666666666
 41
0.0
 71
     1
 72
     1
  1
W/ELECTRIC HEAT
  7
SLDTEXTSTYLE0
 73
     1
 44
1.0
  0
MTEXT
  5
1AD
330
1F
100
AcDbEntity
  8
FORMAT
 62
     0
370
    -3
100
AcDbMText
 10
-23.00463377587881
 20
22.96899046522244
 30
0.0
 40
1.041666666666666
 41
0.0
 71
     1
 72
     1
  1
12" INLET
  7
SLDTEXTSTYLE0
 73
     1
 44
1.0
  0
LINE
  5
1C7
330
1F
100
AcDbEntity
  8
0
370
    18
100
AcDbLine
 10
-37.78662175555408
 20
21.47779143812392
 30
0.0
 11
-31.5506693755897
 21
26.85365947880888
 31
0.0
  0
LINE
  5
1C8
330
1F
100
AcDbEntity
  8
0
370
    18
100
AcDbLine
 10
-37.78662175555408
 20
32.22952751949384
 30
0.0
 11
-31.5506693755897
 21
26.85365947880888
 31
0.0
  0
LINE
  5
1C9
330
1F
100
AcDbEntity
  8
0
370
    18
100
AcDbLine
 10
-37.78662175555408
 20
29.02369953509668
 30
0.0
 11
-37.78662175555408
 21
32.22952751949384
 31
0.0
  0
MTEXT
  5
1CA
330
1F
100
AcDbEntity
  8
0
  6
Continuous
 62
     0
370
    18
100
AcDbMText
 10
-45.71875747371021
 20
28.22379161533928
 30
0.0
 40
2.381249999999999
 41
0.0
 71
     1
 72
     1
  1
{\fVerdana|b0|i0|c0|p34;AIRFLOW}
  7
SLDTEXTSTYLE0
 73
     1
 44
1.0
  0
LINE
  5
1CB
330
1F
100
AcDbEntity
  8
0
370
    18
100
AcDbLine
 10
-46.67943261535222
 20
24.68361942252108
 30
0.0
 11
-37.78662175555408
 21
24.68361942252108
 31
0.0
  0
LINE
  5
1CC
330
1F
100
AcDbEntity
  8
0
370
    18
100
AcDbLine
 10
-46.67943261535222
 20
29.02369953509668
 30
0.0
 11
-37.78662175555408
 21
29.02369953509668
 31
0.0
  0
LINE
  5
1CD
330
1F
100
AcDbEntity
  8
0
370
    18
100
AcDbLine
 10
-46.67943261535222
 20
24.68361942252108
 30
0.0
 11
-46.67943261535222
 21
29.02369953509668
 31
0.0
  0
LINE
  5
1CE
330
1F
100
AcDbEntity
  8
0
370
    18
100
AcDbLine
 10
-37.78662175555408
 20
24.68361942252108
 30
0.0
 11
-37.78662175555408
 21
21.47779143812392
 31
0.0
  0
ENDSEC
  0
SECTION
  2
OBJECTS
  0
DICTIONARY
  5
C
330
0
100
AcDbDictionary
281
     1
  3
ACAD_GROUP
350
D
  3
ACAD_LAYOUT
350
1A
  3
ACAD_MLINESTYLE
350
17
  3
ACAD_PLOTSETTINGS
350
19
  3
ACAD_PLOTSTYLENAME
350
E
  0
DICTIONARY
  5
D
102
{ACAD_REACTORS
330
C
102
}
330
C
100
AcDbDictionary
281
     1
  0
DICTIONARY
  5
1A
102
{ACAD_REACTORS
330
C
102
}
330
C
100
AcDbDictionary
281
     1
  3
Layout1
350
1E
  3
Layout2
350
26
  3
Model
350
22
  0
DICTIONARY
  5
17
102
{ACAD_REACTORS
330
C
102
}
330
C
100
AcDbDictionary
281
     1
  3
Standard
350
18
  0
DICTIONARY
  5
19
102
{ACAD_REACTORS
330
C
102
}
330
C
100
AcDbDictionary
281
     1
  0
ACDBDICTIONARYWDFLT
  5
E
102
{ACAD_REACTORS
330
C
102
}
330
C
100
AcDbDictionary
281
     1
  3
Normal
350
F
100
AcDbDictionaryWithDefault
340
F
  0
LAYOUT
  5
1E
102
{ACAD_REACTORS
330
1A
102
}
330
1A
100
AcDbPlotSettings
  1

  2
none_device
  4

  6

 40
0.0
 41
0.0
 42
0.0
 43
0.0
 44
0.0
 45
0.0
 46
0.0
 47
0.0
 48
0.0
 49
0.0
140
0.0
141
0.0
142
1.0
143
1.0
 70
   688
 72
     0
 73
     0
 74
     5
  7

 75
    16
147
1.0
148
0.0
149
0.0
100
AcDbLayout
  1
Layout1
 70
     1
 71
     1
 10
0.0
 20
0.0
 11
12.0
 21
9.0
 12
0.0
 22
0.0
 32
0.0
 14
1.000000000000000E+20
 24
1.000000000000000E+20
 34
1.000000000000000E+20
 15
-1.000000000000000E+20
 25
-1.000000000000000E+20
 35
-1.000000000000000E+20
146
0.0
 13
0.0
 23
0.0
 33
0.0
 16
1.0
 26
0.0
 36
0.0
 17
0.0
 27
1.0
 37
0.0
 76
     0
330
1B
  0
LAYOUT
  5
26
102
{ACAD_REACTORS
330
1A
102
}
330
1A
100
AcDbPlotSettings
  1

  2
none_device
  4

  6

 40
0.0
 41
0.0
 42
0.0
 43
0.0
 44
0.0
 45
0.0
 46
0.0
 47
0.0
 48
0.0
 49
0.0
140
0.0
141
0.0
142
1.0
143
1.0
 70
   688
 72
     0
 73
     0
 74
     5
  7

 75
    16
147
1.0
148
0.0
149
0.0
100
AcDbLayout
  1
Layout2
 70
     1
 71
     2
 10
0.0
 20
0.0
 11
0.0
 21
0.0
 12
0.0
 22
0.0
 32
0.0
 14
0.0
 24
0.0
 34
0.0
 15
0.0
 25
0.0
 35
0.0
146
0.0
 13
0.0
 23
0.0
 33
0.0
 16
1.0
 26
0.0
 36
0.0
 17
0.0
 27
1.0
 37
0.0
 76
     0
330
23
  0
LAYOUT
  5
22
102
{ACAD_REACTORS
330
1A
102
}
330
1A
100
AcDbPlotSettings
  1

  2
none_device
  4

  6

 40
0.0
 41
0.0
 42
0.0
 43
0.0
 44
0.0
 45
0.0
 46
0.0
 47
0.0
 48
0.0
 49
0.0
140
0.0
141
0.0
142
1.0
143
1.0
 70
  1712
 72
     0
 73
     0
 74
     0
  7

 75
     0
147
1.0
148
0.0
149
0.0
100
AcDbLayout
  1
Model
 70
     1
 71
     0
 10
0.0
 20
0.0
 11
0.0
 21
0.0
 12
0.0
 22
0.0
 32
0.0
 14
0.0
 24
0.0
 34
0.0
 15
11.0
 25
8.5
 35
0.0
146
0.0
 13
0.0
 23
0.0
 33
0.0
 16
1.0
 26
0.0
 36
0.0
 17
0.0
 27
1.0
 37
0.0
 76
     0
330
1F
  0
MLINESTYLE
  5
18
102
{ACAD_REACTORS
330
17
102
}
330
17
100
AcDbMlineStyle
  2
STANDARD
 70
     0
  3

 62
   256
 51
90.0
 52
90.0
 71
     2
 49
0.5
 62
   256
  6
BYLAYER
 49
-0.5
 62
   256
  6
BYLAYER
  0
ACDBPLACEHOLDER
  5
F
102
{ACAD_REACTORS
330
E
102
}
330
E
  0
ENDSEC
  0
EOF
